0
SECTION
2
HEADER
9
$INSUNITS
70
1
9
$ACADVER
1
AC1014
9
$HANDSEED
5
FFFF
0
ENDSEC
0
SECTION
2
TABLES
0
TABLE
2
VPORT
5
8
100
AcDbSymbolTable
0
ENDTAB
0
TABLE
2
LTYPE
5
5
100
AcDbSymbolTable
0
LTYPE
5
14
100
AcDbSymbolTableRecord
100
AcDbLinetypeTableRecord
2
BYBLOCK
70
0
0
LTYPE
5
15
100
AcDbSymbolTableRecord
100
AcDbLinetypeTableRecord
2
BYLAYER
70
0
0
ENDTAB
0
TABLE
2
LAYER
5
2
100
AcDbSymbolTable
70
2
0
LAYER
5
50
100
AcDbSymbolTableRecord
100
AcDbLayerTableRecord
2
0
70
0
6
CONTINUOUS
0
ENDTAB
0
TABLE
2
STYLE
5
3
100
AcDbSymbolTable
70
1
0
STYLE
5
11
100
AcDbSymbolTableRecord
100
AcDbTextStyleTableRecord
2
STANDARD
70
0
0
ENDTAB
0
TABLE
2
VIEW
5
6
100
AcDbSymbolTable
70
0
0
ENDTAB
0
TABLE
2
UCS
5
7
100
AcDbSymbolTable
70
0
0
ENDTAB
0
TABLE
2
APPID
5
9
100
AcDbSymbolTable
70
2
0
APPID
5
12
100
AcDbSymbolTableRecord
100
AcDbRegAppTableRecord
2
ACAD
70
0
0
ENDTAB
0
TABLE
2
DIMSTYLE
5
A
100
AcDbSymbolTable
70
1
0
ENDTAB
0
TABLE
2
BLOCK_RECORD
5
1
100
AcDbSymbolTable
70
1
0
BLOCK_RECORD
5
1F
100
AcDbSymbolTableRecord
100
AcDbBlockTableRecord
2
*MODEL_SPACE
0
BLOCK_RECORD
5
1B
100
AcDbSymbolTableRecord
100
AcDbBlockTableRecord
2
*PAPER_SPACE
0
ENDTAB
0
ENDSEC
0
SECTION
2
BLOCKS
0
BLOCK
5
20
100
AcDbEntity
100
AcDbBlockBegin
2
*MODEL_SPACE
0
ENDBLK
5
21
100
AcDbEntity
100
AcDbBlockEnd
0
BLOCK
5
1C
100
AcDbEntity
100
AcDbBlockBegin
2
*PAPER_SPACE
0
ENDBLK
5
1D
100
AcDbEntity
100
AcDbBlockEnd
0
ENDSEC
0
SECTION
2
ENTITIES
0
LWPOLYLINE
5
100
100
AcDbEntity
8
OUTER_PROFILES
100
AcDbPolyline
90
36
70
1
43
0.0
10
12.073406290873793
20
3.5742456744784992
10
11.80624723056852
20
3.5742456744784992
10
11.80624723056852
20
3.3070866141732274
10
11.840840917829958
20
3.3070866141732274
10
11.840840917829951
20
1.3779527559055122
42
-0.41421356237309509
10
10.462888161924438
20
0
10
2.6225740739176924e-16
20
3.4967654318902565e-16
42
-0.41421356237309503
10
-1.3779527559055116
20
1.3779527559055116
10
-1.377952755905506
20
3.3070866141732274
10
-1.3433590686440799
20
3.3070866141732274
10
-1.3433590686440799
20
3.5742456744784992
10
-1.6105181289493509
20
3.5742456744784992
10
-1.6105181289493509
20
3.5396519872170673
10
-3.5396519872170669
20
3.5396519872170682
42
-0.41421356237309503
10
-4.9176047431225784
20
4.9176047431225802
10
-4.9176047431225784
20
8.6875795192202467
42
-0.41421356237309503
10
-3.5396519872170669
20
10.06553227512576
10
-1.6105181289493509
20
10.06553227512576
10
-1.6105181289493509
20
10.030938587864327
10
-1.3433590686440799
20
10.030938587864327
10
-1.3433590686440799
20
10.298097648169598
10
-1.377952755905506
20
10.298097648169598
10
-1.3779527559055116
20
12.227231506437313
42
-0.41421356237309503
10
0
20
13.605184262342826
10
10.462888161924438
20
13.605184262342826
42
-0.41421356237309503
10
11.840840917829949
20
12.227231506437313
10
11.840840917829945
20
10.298097648169598
10
11.80624723056852
20
10.298097648169598
10
11.80624723056852
20
10.030938587864327
10
12.073406290873793
20
10.030938587864327
10
12.073406290873793
20
10.06553227512576
10
14.002540149141506
20
10.065532275125756
42
-0.41421356237309503
10
15.380492905047019
20
8.687579519220245
10
15.380492905047019
20
4.9176047431225802
42
-0.41421356237309503
10
14.002540149141506
20
3.5396519872170691
10
12.073406290873793
20
3.5396519872170682
0
LINE
5
101
100
AcDbEntity
8
BEND
100
AcDbLine
10
11.939826760721155
20
10.030938587864327
30
-2.0011490913962057e-15
11
11.939826760721155
21
3.5742456744784987
31
-2.0011490913962057e-15
0
LINE
5
102
100
AcDbEntity
8
BEND
100
AcDbLine
10
-1.3433590686440799
20
10.164518118016961
30
-1.9574395234975775e-15
11
11.80624723056852
21
10.164518118016961
31
-1.9574395234975775e-15
0
LINE
5
103
100
AcDbEntity
8
BEND
100
AcDbLine
10
-1.4769385987967167
20
3.5742456744784992
30
-2.0011490913962057e-15
11
-1.4769385987967167
21
10.030938587864327
31
-2.0011490913962057e-15
0
LINE
5
104
100
AcDbEntity
8
BEND
100
AcDbLine
10
11.80624723056852
20
3.4406661443258639
30
-1.9364985807437859e-15
11
-1.3433590686440799
21
3.4406661443258639
31
-1.9364985807437859e-15
0
LINE
5
105
100
AcDbEntity
8
BEND_EXTENT
100
AcDbLine
10
-1.3433590686440799
20
10.298097648169598
30
-4.4925944616180136e-15
11
11.80624723056852
21
10.298097648169598
31
-4.4925944616180136e-15
0
LINE
5
106
100
AcDbEntity
8
BEND_EXTENT
100
AcDbLine
10
12.073406290873793
20
10.030938587864327
30
-1.9320735869586249e-15
11
12.073406290873793
21
3.5742456744784987
31
-1.9320735869586249e-15
0
LINE
5
107
100
AcDbEntity
8
BEND_EXTENT
100
AcDbLine
10
11.80624723056852
20
3.3070866141732274
30
-1.8970772174088946e-15
11
-1.3433590686440799
21
3.3070866141732274
31
-1.8970772174088946e-15
0
LINE
5
108
100
AcDbEntity
8
BEND_EXTENT
100
AcDbLine
10
-1.6105181289493509
20
3.5742456744784992
30
-2.9647594334970573e-16
11
-1.6105181289493509
21
10.030938587864327
31
-2.9647594334970573e-16
0
LWPOLYLINE
5
109
100
AcDbEntity
8
BEND_EXTENT
100
AcDbPolyline
90
4
70
1
43
0.0
10
11.80624723056852
20
10.030938587864327
10
11.80624723056852
20
3.5742456744784992
10
-1.3433590686440799
20
3.5742456744784987
10
-1.3433590686440799
20
10.030938587864327
0
ENDSEC
0
SECTION
2
OBJECTS
0
DICTIONARY
5
C
100
AcDbDictionary
3
ACAD_GROUP
350
D
3
ACAD_MLINESTYLE
350
17
0
DICTIONARY
5
D
100
AcDbDictionary
0
DICTIONARY
5
1A
330
C
100
AcDbDictionary
0
DICTIONARY
5
17
100
AcDbDictionary
0
ENDSEC
0
EOF
