0
SECTION
2
HEADER
9
$INSUNITS
70
1
9
$ACADVER
1
AC1014
9
$HANDSEED
5
FFFF
0
ENDSEC
0
SECTION
2
TABLES
0
TABLE
2
VPORT
5
8
100
AcDbSymbolTable
0
ENDTAB
0
TABLE
2
LTYPE
5
5
100
AcDbSymbolTable
0
LTYPE
5
14
100
AcDbSymbolTableRecord
100
AcDbLinetypeTableRecord
2
BYBLOCK
70
0
0
LTYPE
5
15
100
AcDbSymbolTableRecord
100
AcDbLinetypeTableRecord
2
BYLAYER
70
0
0
ENDTAB
0
TABLE
2
LAYER
5
2
100
AcDbSymbolTable
70
2
0
LAYER
5
50
100
AcDbSymbolTableRecord
100
AcDbLayerTableRecord
2
0
70
0
6
CONTINUOUS
0
ENDTAB
0
TABLE
2
STYLE
5
3
100
AcDbSymbolTable
70
1
0
STYLE
5
11
100
AcDbSymbolTableRecord
100
AcDbTextStyleTableRecord
2
STANDARD
70
0
0
ENDTAB
0
TABLE
2
VIEW
5
6
100
AcDbSymbolTable
70
0
0
ENDTAB
0
TABLE
2
UCS
5
7
100
AcDbSymbolTable
70
0
0
ENDTAB
0
TABLE
2
APPID
5
9
100
AcDbSymbolTable
70
2
0
APPID
5
12
100
AcDbSymbolTableRecord
100
AcDbRegAppTableRecord
2
ACAD
70
0
0
ENDTAB
0
TABLE
2
DIMSTYLE
5
A
100
AcDbSymbolTable
70
1
0
ENDTAB
0
TABLE
2
BLOCK_RECORD
5
1
100
AcDbSymbolTable
70
1
0
BLOCK_RECORD
5
1F
100
AcDbSymbolTableRecord
100
AcDbBlockTableRecord
2
*MODEL_SPACE
0
BLOCK_RECORD
5
1B
100
AcDbSymbolTableRecord
100
AcDbBlockTableRecord
2
*PAPER_SPACE
0
ENDTAB
0
ENDSEC
0
SECTION
2
BLOCKS
0
BLOCK
5
20
100
AcDbEntity
100
AcDbBlockBegin
2
*MODEL_SPACE
0
ENDBLK
5
21
100
AcDbEntity
100
AcDbBlockEnd
0
BLOCK
5
1C
100
AcDbEntity
100
AcDbBlockBegin
2
*PAPER_SPACE
0
ENDBLK
5
1D
100
AcDbEntity
100
AcDbBlockEnd
0
ENDSEC
0
SECTION
2
ENTITIES
0
SPLINE
5
100
100
AcDbEntity
8
0
100
AcDbSpline
70
4
71
3
72
8
73
4
74
0
42
0.000000001
43
0.0000000001
44
0.0000000001
40
0
40
0
40
0
40
0
40
1
40
1
40
1
40
1
41
1
41
1
41
1
41
1
10
9.7352283690822006
20
-17.257258714202973
30
0
10
9.5916808764562731
20
-16.962978549173467
30
0
10
9.3325853165402073
20
-16.815884219649778
30
0
10
9.1487955262865821
20
-16.540995639122279
30
0
0
SPLINE
5
101
100
AcDbEntity
8
0
100
AcDbSpline
70
4
71
3
72
8
73
4
74
0
42
0.000000001
43
0.0000000001
44
0.0000000001
40
0
40
0
40
0
40
0
40
1
40
1
40
1
40
1
41
1
41
1
41
1
41
1
10
9.1487955262865821
20
-16.540995639122279
30
0
10
8.9649691206480249
20
-16.266107058594777
30
0
10
8.8564483799567917
20
-15.863405925867037
30
0
10
8.7094054619138017
20
-15.542061644216011
30
0
0
SPLINE
5
102
100
AcDbEntity
8
0
100
AcDbSpline
70
4
71
3
72
8
73
4
74
0
42
0.000000001
43
0.0000000001
44
0.0000000001
40
0
40
0
40
0
40
0
40
1
40
1
40
1
40
1
41
1
41
1
41
1
41
1
10
8.7094054619138017
20
-15.542061644216011
30
0
10
8.5623259633909168
20
-15.220662458975708
30
0
10
8.376724427136427
20
-14.980601893467584
30
0
10
8.0878725316985101
20
-14.957364962159506
30
0
0
SPLINE
5
103
100
AcDbEntity
8
0
100
AcDbSpline
70
4
71
3
72
8
73
4
74
0
42
0.000000001
43
0.0000000001
44
0.0000000001
40
0
40
0
40
0
40
0
40
1
40
1
40
1
40
1
41
1
41
1
41
1
41
1
10
8.0878725316985101
20
-14.957364962159506
30
0
10
7.7274665648047014
20
-14.928378241986838
30
0
10
7.9677127758739266
20
-14.970603991771782
30
0
10
7.6665265569443646
20
-14.752187315260034
30
0
0
SPLINE
5
104
100
AcDbEntity
8
0
100
AcDbSpline
70
4
71
3
72
8
73
4
74
0
42
0.000000001
43
0.0000000001
44
0.0000000001
40
0
40
0
40
0
40
0
40
1
40
1
40
1
40
1
41
1
41
1
41
1
41
1
10
7.6665265569443646
20
-14.752187315260034
30
0
10
7.5037087956175466
20
-14.634116378153758
30
0
10
7.2621265593112714
20
-14.49857632039283
30
0
10
7.0958319769526783
20
-14.330167872667888
30
0
0
SPLINE
5
105
100
AcDbEntity
8
0
100
AcDbSpline
70
4
71
3
72
8
73
4
74
0
42
0.000000001
43
0.0000000001
44
0.0000000001
40
0
40
0
40
0
40
0
40
1
40
1
40
1
40
1
41
1
41
1
41
1
41
1
10
7.0958319769526783
20
-14.330167872667888
30
0
10
6.9295189647339877
20
-14.161722543142519
30
0
10
6.8384567467427804
20
-13.960426985145768
30
0
10
6.8017095603868043
20
-13.801668436976973
30
0
0
SPLINE
5
106
100
AcDbEntity
8
0
100
AcDbSpline
70
4
71
3
72
8
73
4
74
0
42
0.000000001
43
0.0000000001
44
0.0000000001
40
0
40
0
40
0
40
0
40
1
40
1
40
1
40
1
41
1
41
1
41
1
41
1
10
6.8017095603868043
20
-13.801668436976973
30
0
10
6.7649442234110317
20
-13.642928050300815
30
0
10
6.7824394662111036
20
-13.526743393760412
30
0
10
6.7526830608791748
20
-13.52287946635033
30
0
0
SPLINE
5
107
100
AcDbEntity
8
0
100
AcDbSpline
70
4
71
3
72
8
73
4
74
0
42
0.000000001
43
0.0000000001
44
0.0000000001
40
0
40
0
40
0
40
0
40
1
40
1
40
1
40
1
41
1
41
1
41
1
41
1
10
6.7526830608791748
20
-13.52287946635033
30
0
10
6.7229266555472478
20
-13.519015818347826
30
0
10
6.6458825800840344
20
-13.627399974097527
30
0
10
6.5600907436006342
20
-13.782295153671395
30
0
0
SPLINE
5
108
100
AcDbEntity
8
0
100
AcDbSpline
70
4
71
3
72
8
73
4
74
0
42
0.000000001
43
0.0000000001
44
0.0000000001
40
0
40
0
40
0
40
0
40
1
40
1
40
1
40
1
41
1
41
1
41
1
41
1
10
6.5600907436006342
20
-13.782295153671395
30
0
10
6.4743173369773341
20
-13.937171892345049
30
0
10
6.3797961693338445
20
-14.138485611834437
30
0
10
6.322022188046331
20
-14.372741484888698
30
0
0
SPLINE
5
109
100
AcDbEntity
8
0
100
AcDbSpline
70
4
71
3
72
8
73
4
74
0
42
0.000000001
43
0.0000000001
44
0.0000000001
40
0
40
0
40
0
40
0
40
1
40
1
40
1
40
1
41
1
41
1
41
1
41
1
10
6.322022188046331
20
-14.372741484888698
30
0
10
6.2642663573786148
20
-14.60699735794296
30
0
10
6.24323956244708
20
-14.874158502761665
30
0
10
6.3027886743505261
20
-15.16843866779117
30
0
0
SPLINE
5
110
100
AcDbEntity
8
0
100
AcDbSpline
70
4
71
3
72
8
73
4
74
0
42
0.000000001
43
0.0000000001
44
0.0000000001
40
0
40
0
40
0
40
0
40
1
40
1
40
1
40
1
41
1
41
1
41
1
41
1
10
6.3027886743505261
20
-15.16843866779117
30
0
10
6.3622830551542808
20
-15.462682230427824
30
0
10
6.5023167623131215
20
-15.78404481327528
30
0
10
6.70717024212352
20
-15.954412746351792
30
0
0
SPLINE
5
111
100
AcDbEntity
8
0
100
AcDbSpline
70
4
71
3
72
8
73
4
74
0
42
0.000000001
43
0.0000000001
44
0.0000000001
40
0
40
0
40
0
40
0
40
1
40
1
40
1
40
1
41
1
41
1
41
1
41
1
10
6.70717024212352
20
-15.954412746351792
30
0
10
6.9132132856312376
20
-16.125659625819967
30
0
10
6.8208333326429269
20
-16.010774843188997
30
0
10
6.8028991240841261
20
-16.331862628682497
30
0
0
SPLINE
5
112
100
AcDbEntity
8
0
100
AcDbSpline
70
4
71
3
72
8
73
4
74
0
42
0.000000001
43
0.0000000001
44
0.0000000001
40
0
40
0
40
0
40
0
40
1
40
1
40
1
40
1
41
1
41
1
41
1
41
1
10
6.8028991240841261
20
-16.331862628682497
30
0
10
6.7871427106603974
20
-16.614515177459747
30
0
10
6.8537007542076864
20
-16.815865708897668
30
0
10
7.0007618228704729
20
-17.005588624083337
30
0
0
SPLINE
5
113
100
AcDbEntity
8
0
100
AcDbSpline
70
4
71
3
72
8
73
4
74
0
42
0.000000001
43
0.0000000001
44
0.0000000001
40
0
40
0
40
0
40
0
40
1
40
1
40
1
40
1
41
1
41
1
41
1
41
1
10
7.0007618228704729
20
-17.005588624083337
30
0
10
7.147804740913462
20
-17.195311539269007
30
0
10
7.3753869853115388
20
-17.373406803276474
30
0
10
7.5732132432381434
20
-17.764480284826011
30
0
0
SPLINE
5
114
100
AcDbEntity
8
0
100
AcDbSpline
70
4
71
3
72
8
73
4
74
0
42
0.000000001
43
0.0000000001
44
0.0000000001
40
0
40
0
40
0
40
0
40
1
40
1
40
1
40
1
41
1
41
1
41
1
41
1
10
7.5732132432381434
20
-17.764480284826011
30
0
10
7.7710027810647029
20
-18.155517129056751
30
0
10
7.9390543434194329
20
-18.759532120977667
30
0
10
8.1141332672781061
20
-19.282227003918511
30
0
0
SPLINE
5
115
100
AcDbEntity
8
0
100
AcDbSpline
70
4
71
3
72
8
73
4
74
0
42
0.000000001
43
0.0000000001
44
0.0000000001
40
0
40
0
40
0
40
0
40
1
40
1
40
1
40
1
41
1
41
1
41
1
41
1
10
8.1141332672781061
20
-19.282227003918511
30
0
10
8.2891939008968336
20
-19.804940048351988
30
0
10
8.4712451759194582
20
-20.246296171856866
30
0
10
8.544830580970693
20
-20.615396377800323
30
0
0
SPLINE
5
116
100
AcDbEntity
8
0
100
AcDbSpline
70
4
71
3
72
8
73
4
74
0
42
0.000000001
43
0.0000000001
44
0.0000000001
40
0
40
0
40
0
40
0
40
1
40
1
40
1
40
1
41
1
41
1
41
1
41
1
10
8.544830580970693
20
-20.615396377800323
30
0
10
8.8613341079451011
20
-22.203604938389436
30
0
10
9.0492598310643171
20
-24.036799740696974
30
0
10
11.203167563716562
20
-24.002704192645961
30
0
0
SPLINE
5
117
100
AcDbEntity
8
0
100
AcDbSpline
70
4
71
3
72
8
73
4
74
0
42
0.000000001
43
0.0000000001
44
0.0000000001
40
0
40
0
40
0
40
0
40
1
40
1
40
1
40
1
41
1
41
1
41
1
41
1
10
11.203167563716562
20
-24.002704192645961
30
0
10
13.187083921428547
20
-23.971263575410671
30
0
10
13.532282461337342
20
-22.231017057150609
30
0
10
13.854312712419116
20
-20.615396657207903
30
0
0
SPLINE
5
118
100
AcDbEntity
8
0
100
AcDbSpline
70
4
71
3
72
8
73
4
74
0
42
0.000000001
43
0.0000000001
44
0.0000000001
40
0
40
0
40
0
40
0
40
1
40
1
40
1
40
1
41
1
41
1
41
1
41
1
10
13.854312712419116
20
-20.615396657207903
30
0
10
13.927898117470352
20
-20.246296730672018
30
0
10
14.109949392492977
20
-19.804940607167147
30
0
10
14.289457067581585
20
-19.251263056013002
30
0
0
SPLINE
5
119
100
AcDbEntity
8
0
100
AcDbSpline
70
4
71
3
72
8
73
4
74
0
42
0.000000001
43
0.0000000001
44
0.0000000001
40
0
40
0
40
0
40
0
40
1
40
1
40
1
40
1
41
1
41
1
41
1
41
1
10
14.289457067581585
20
-19.251263056013002
30
0
10
14.468946312810093
20
-18.69756734336622
30
0
10
14.64591038796469
20
-18.031641848756088
30
0
10
14.90244342941611
20
-17.565107749491769
30
0
0
SPLINE
5
120
100
AcDbEntity
8
0
100
AcDbSpline
70
4
71
3
72
8
73
4
74
0
42
0.000000001
43
0.0000000001
44
0.0000000001
40
0
40
0
40
0
40
0
40
1
40
1
40
1
40
1
41
1
41
1
41
1
41
1
10
14.90244342941611
20
-17.565107749491769
30
0
10
15.158977029348138
20
-17.098518641860341
30
0
10
15.495117013777797
20
-16.831375763312113
30
0
10
15.612385096628756
20
-16.455793580943276
30
0
0
SPLINE
5
121
100
AcDbEntity
8
0
100
AcDbSpline
70
4
71
3
72
8
73
4
74
0
42
0.000000001
43
0.0000000001
44
0.0000000001
40
0
40
0
40
0
40
0
40
1
40
1
40
1
40
1
41
1
41
1
41
1
41
1
10
15.612385096628756
20
-16.455793580943276
30
0
10
15.658757975522386
20
-16.307307592120452
30
0
10
15.615404801282009
20
-16.03234580680725
30
0
10
15.709266961806792
20
-15.954413025759372
30
0
0
SPLINE
5
122
100
AcDbEntity
8
0
100
AcDbSpline
70
4
71
3
72
8
73
4
74
0
42
0.000000001
43
0.0000000001
44
0.0000000001
40
0
40
0
40
0
40
0
40
1
40
1
40
1
40
1
41
1
41
1
41
1
41
1
10
15.709266961806792
20
-15.954413025759372
30
0
10
15.914102011757091
20
-15.784045092682856
30
0
10
16.054135998156237
20
-15.462682509835405
30
0
10
16.113648808820091
20
-15.168438947198748
30
0
0
SPLINE
5
123
100
AcDbEntity
8
0
100
AcDbSpline
70
4
71
3
72
8
73
4
74
0
42
0.000000001
43
0.0000000001
44
0.0000000001
40
0
40
0
40
0
40
0
40
1
40
1
40
1
40
1
41
1
41
1
41
1
41
1
10
16.113648808820091
20
-15.168438947198748
30
0
10
16.173197920723538
20
-14.874158782169246
30
0
10
16.152171125792002
20
-14.606997637350538
30
0
10
16.094415295124282
20
-14.372741764296277
30
0
0
SPLINE
5
124
100
AcDbEntity
8
0
100
AcDbSpline
70
4
71
3
72
8
73
4
74
0
42
0.000000001
43
0.0000000001
44
0.0000000001
40
0
40
0
40
0
40
0
40
1
40
1
40
1
40
1
41
1
41
1
41
1
41
1
10
16.094415295124282
20
-14.372741764296277
30
0
10
16.03662316321698
20
-14.138485891242015
30
0
10
15.942101995573488
20
-13.937171892345049
30
0
10
15.856328309709882
20
-13.782295433078973
30
0
0
SPLINE
5
125
100
AcDbEntity
8
0
100
AcDbSpline
70
4
71
3
72
8
73
4
74
0
42
0.000000001
43
0.0000000001
44
0.0000000001
40
0
40
0
40
0
40
0
40
1
40
1
40
1
40
1
41
1
41
1
41
1
41
1
10
15.856328309709882
20
-13.782295433078973
30
0
10
15.770554623846275
20
-13.627400532912684
30
0
10
15.693492118522963
20
-13.519016097755408
30
0
10
15.663754143051138
20
-13.522879745757912
30
0
0
SPLINE
5
126
100
AcDbEntity
8
0
100
AcDbSpline
70
4
71
3
72
8
73
4
74
0
42
0.000000001
43
0.0000000001
44
0.0000000001
40
0
40
0
40
0
40
0
40
1
40
1
40
1
40
1
41
1
41
1
41
1
41
1
10
15.663754143051138
20
-13.522879745757912
30
0
10
15.633997737719207
20
-13.526743393760412
30
0
10
15.651492701278976
20
-13.642928329708395
30
0
10
15.614709492923716
20
-13.801668716384555
30
0
0
SPLINE
5
127
100
AcDbEntity
8
0
100
AcDbSpline
70
4
71
3
72
8
73
4
74
0
42
0.000000001
43
0.0000000001
44
0.0000000001
40
0
40
0
40
0
40
0
40
1
40
1
40
1
40
1
41
1
41
1
41
1
41
1
10
15.614709492923716
20
-13.801668716384555
30
0
10
15.57796258580804
20
-13.960427264553347
30
0
10
15.48690008857653
20
-14.161722822550097
30
0
10
15.320587355598143
20
-14.330168152075469
30
0
0
SPLINE
5
128
100
AcDbEntity
8
0
100
AcDbSpline
70
4
71
3
72
8
73
4
74
0
42
0.000000001
43
0.0000000001
44
0.0000000001
40
0
40
0
40
0
40
0
40
1
40
1
40
1
40
1
41
1
41
1
41
1
41
1
10
15.320587355598143
20
-14.330168152075469
30
0
10
15.154292493999245
20
-14.498576879207988
30
0
10
14.912728966793374
20
-14.634116657561338
30
0
10
14.749892775606458
20
-14.752187594667614
30
0
0
SPLINE
5
129
100
AcDbEntity
8
0
100
AcDbSpline
70
4
71
3
72
8
73
4
74
0
42
0.000000001
43
0.0000000001
44
0.0000000001
40
0
40
0
40
0
40
0
40
1
40
1
40
1
40
1
41
1
41
1
41
1
41
1
10
14.749892775606458
20
-14.752187594667614
30
0
10
14.512592689370235
20
-14.924386625313153
30
0
10
14.658592365635482
20
-14.86123115230377
30
0
10
14.389248895973187
20
-14.938010259457933
30
0
0
SPLINE
5
130
100
AcDbEntity
8
0
100
AcDbSpline
70
4
71
3
72
8
73
4
74
0
42
0.000000001
43
0.0000000001
44
0.0000000001
40
0
40
0
40
0
40
0
40
1
40
1
40
1
40
1
41
1
41
1
41
1
41
1
10
14.389248895973187
20
-14.938010259457933
30
0
10
14.130976745905123
20
-15.011548238695616
30
0
10
14.053932670441908
20
-15.282591472417041
30
0
10
13.900832471712928
20
-15.584580771958912
30
0
0
SPLINE
5
131
100
AcDbEntity
8
0
100
AcDbSpline
70
4
71
3
72
8
73
4
74
0
42
0.000000001
43
0.0000000001
44
0.0000000001
40
0
40
0
40
0
40
0
40
1
40
1
40
1
40
1
41
1
41
1
41
1
41
1
10
13.900832471712928
20
-15.584580771958912
30
0
10
13.74769569250406
20
-15.886588232993425
30
0
10
13.518484360169321
20
-16.219615104337873
30
0
10
13.280434234475118
20
-16.479012350758723
30
0
0
SPLINE
5
132
100
AcDbEntity
8
0
100
AcDbSpline
70
4
71
3
72
8
73
4
74
0
42
0.000000001
43
0.0000000001
44
0.0000000001
40
0
40
0
40
0
40
0
40
1
40
1
40
1
40
1
41
1
41
1
41
1
41
1
10
13.280434234475118
20
-16.479012350758723
30
0
10
13.042347528301017
20
-16.738427898375999
30
0
10
12.895121707858557
20
-16.901086766792041
30
0
10
12.757668181113626
20
-17.214685311537849
30
0
0
SPLINE
5
133
100
AcDbEntity
8
0
100
AcDbSpline
70
4
71
3
72
8
73
4
74
0
42
0.000000001
43
0.0000000001
44
0.0000000001
40
0
40
0
40
0
40
0
40
1
40
1
40
1
40
1
41
1
41
1
41
1
41
1
10
12.757668181113626
20
-17.214685311537849
30
0
10
12.62515581155745
20
-17.517059075908435
30
0
10
12.51204170747676
20
-17.960740778545276
30
0
10
12.477838400295104
20
-18.166394466107477
30
0
0
SPLINE
5
134
100
AcDbEntity
8
0
100
AcDbSpline
70
4
71
3
72
8
73
4
74
0
42
0.000000001
43
0.0000000001
44
0.0000000001
40
0
40
0
40
0
40
0
40
1
40
1
40
1
40
1
41
1
41
1
41
1
41
1
10
12.477838400295104
20
-18.166394466107477
30
0
10
12.425060307296039
20
-18.483819986611042
30
0
10
12.39466360394581
20
-18.414640136938811
30
0
10
12.362528350459542
20
-17.578584834361362
30
0
0
SPLINE
5
135
100
AcDbEntity
8
0
100
AcDbSpline
70
4
71
3
72
8
73
4
74
0
42
0.000000001
43
0.0000000001
44
0.0000000001
40
0
40
0
40
0
40
0
40
1
40
1
40
1
40
1
41
1
41
1
41
1
41
1
10
12.362528350459542
20
-17.578584834361362
30
0
10
12.344959946699682
20
-17.121316169824489
30
0
10
12.315899128966354
20
-16.682120705128071
30
0
10
12.262498888568784
20
-16.319979005235982
30
0
0
SPLINE
5
136
100
AcDbEntity
8
0
100
AcDbSpline
70
4
71
3
72
8
73
4
74
0
42
0.000000001
43
0.0000000001
44
0.0000000001
40
0
40
0
40
0
40
0
40
1
40
1
40
1
40
1
41
1
41
1
41
1
41
1
10
12.262498888568784
20
-16.319979005235982
30
0
10
12.251116216034998
20
-15.88006937476762
30
0
10
12.239733264260906
20
-15.499836173838643
30
0
10
12.271191639248979
20
-15.092007981888029
30
0
0
SPLINE
5
137
100
AcDbEntity
8
0
100
AcDbSpline
70
4
71
3
72
8
73
4
74
0
42
0.000000001
43
0.0000000001
44
0.0000000001
40
0
40
0
40
0
40
0
40
1
40
1
40
1
40
1
41
1
41
1
41
1
41
1
10
12.271191639248979
20
-15.092007981888029
30
0
10
12.310665327938443
20
-14.579952101333021
30
0
10
12.417593980033365
20
-14.024333645431305
30
0
10
12.351090667585764
20
-13.586877772321786
30
0
0
SPLINE
5
138
100
AcDbEntity
8
0
100
AcDbSpline
70
4
71
3
72
8
73
4
74
0
42
0.000000001
43
0.0000000001
44
0.0000000001
40
0
40
0
40
0
40
0
40
1
40
1
40
1
40
1
41
1
41
1
41
1
41
1
10
12.351090667585764
20
-13.586877772321786
30
0
10
12.32644017122227
20
-13.424713245764901
30
0
10
12.171582992497154
20
-13.239275185507088
30
0
10
12.095746631351059
20
-13.09040459215176
30
0
0
SPLINE
5
139
100
AcDbEntity
8
0
100
AcDbSpline
70
4
71
3
72
8
73
4
74
0
42
0.000000001
43
0.0000000001
44
0.0000000001
40
0
40
0
40
0
40
0
40
1
40
1
40
1
40
1
41
1
41
1
41
1
41
1
10
12.095746631351059
20
-13.09040459215176
30
0
10
12.055412742903471
20
-13.011208469735401
30
0
10
12.06373940954442
20
-12.908885223189513
30
0
10
12.067637324955433
20
-12.899582906661648
30
0
0
SPLINE
5
140
100
AcDbEntity
8
0
100
AcDbSpline
70
4
71
3
72
8
73
4
74
0
42
0.000000001
43
0.0000000001
44
0.0000000001
40
0
40
0
40
0
40
0
40
1
40
1
40
1
40
1
41
1
41
1
41
1
41
1
10
12.067637324955433
20
-12.899582906661648
30
0
10
12.160401372982632
20
-12.678932226851952
30
0
10
12.111393303335104
20
-12.330414021400852
30
0
10
12.006660736615204
20
-12.044886857598888
30
0
0
SPLINE
5
141
100
AcDbEntity
8
0
100
AcDbSpline
70
4
71
3
72
8
73
4
74
0
42
0.000000001
43
0.0000000001
44
0.0000000001
40
0
40
0
40
0
40
0
40
1
40
1
40
1
40
1
41
1
41
1
41
1
41
1
10
12.006660736615204
20
-12.044886857598888
30
0
10
11.901909879655355
20
-11.759304371096279
30
0
10
11.741397945143239
20
-11.536676323849953
30
0
10
11.617120651408126
20
-11.30245733259612
30
0
0
SPLINE
5
142
100
AcDbEntity
8
0
100
AcDbSpline
70
4
71
3
72
8
73
4
74
0
42
0.000000001
43
0.0000000001
44
0.0000000001
40
0
40
0
40
0
40
0
40
1
40
1
40
1
40
1
41
1
41
1
41
1
41
1
10
11.617120651408126
20
-11.30245733259612
30
0
10
11.492825067433065
20
-11.068201459541859
30
0
10
11.404690823655066
20
-10.822354642480091
30
0
10
11.318624493952308
20
-10.819131955463829
30
0
0
SPLINE
5
143
100
AcDbEntity
8
0
100
AcDbSpline
70
4
71
3
72
8
73
4
74
0
42
0.000000001
43
0.0000000001
44
0.0000000001
40
0
40
0
40
0
40
0
40
1
40
1
40
1
40
1
41
1
41
1
41
1
41
1
10
11.318624493952308
20
-10.819131955463829
30
0
10
11.2325583038697
20
-10.815890268732195
30
0
10
11.148505017522339
20
-11.055273270861226
30
0
10
11.036452305839189
20
-11.270155581202332
30
0
0
SPLINE
5
144
100
AcDbEntity
8
0
100
AcDbSpline
70
4
71
3
72
8
73
4
74
0
42
0.000000001
43
0.0000000001
44
0.0000000001
40
0
40
0
40
0
40
0
40
1
40
1
40
1
40
1
41
1
41
1
41
1
41
1
10
11.036452305839189
20
-11.270155581202332
30
0
10
10.924399733776189
20
-11.485020009458376
30
0
10
10.784365817187117
20
-11.675383745926499
30
0
10
10.668836075041966
20
-11.890596316025988
30
0
0
SPLINE
5
145
100
AcDbEntity
8
0
100
AcDbSpline
70
4
71
3
72
8
73
4
74
0
42
0.000000001
43
0.0000000001
44
0.0000000001
40
0
40
0
40
0
40
0
40
1
40
1
40
1
40
1
41
1
41
1
41
1
41
1
10
10.668836075041966
20
-11.890596316025988
30
0
10
10.553288042656867
20
-12.105789886410106
30
0
10
10.462244114905607
20
-12.345868613410863
30
0
10
10.472748437061478
20
-12.570437984516124
30
0
0
SPLINE
5
146
100
AcDbEntity
8
0
100
AcDbSpline
70
4
71
3
72
8
73
4
74
0
42
0.000000001
43
0.0000000001
44
0.0000000001
40
0
40
0
40
0
40
0
40
1
40
1
40
1
40
1
41
1
41
1
41
1
41
1
10
10.472748437061478
20
-12.570437984516124
30
0
10
10.502504702773251
20
-13.206277988649148
30
0
10
10.234954444536607
20
-12.906614477794928
30
0
10
10.131484602473817
20
-13.586877492914205
30
0
0
SPLINE
5
147
100
AcDbEntity
8
0
100
AcDbSpline
70
4
71
3
72
8
73
4
74
0
42
0.000000001
43
0.0000000001
44
0.0000000001
40
0
40
0
40
0
40
0
40
1
40
1
40
1
40
1
41
1
41
1
41
1
41
1
10
10.131484602473817
20
-13.586877492914205
30
0
10
10.064981324931255
20
-14.024369968416575
30
0
10
10.171928267266123
20
-14.579951821925439
30
0
10
10.211401990860624
20
-15.092007702480453
30
0
0
SPLINE
5
148
100
AcDbEntity
8
0
100
AcDbSpline
70
4
71
3
72
8
73
4
74
0
42
0.000000001
43
0.0000000001
44
0.0000000001
40
0
40
0
40
0
40
0
40
1
40
1
40
1
40
1
41
1
41
1
41
1
41
1
10
10.211401990860624
20
-15.092007702480453
30
0
10
10.24284190108356
20
-15.499836034134855
30
0
10
10.231459088929622
20
-15.880069235063834
30
0
10
10.220076311680721
20
-16.319978795680296
30
0
0
SPLINE
5
149
100
AcDbEntity
8
0
100
AcDbSpline
70
4
71
3
72
8
73
4
74
0
42
0.000000001
43
0.0000000001
44
0.0000000001
40
0
40
0
40
0
40
0
40
1
40
1
40
1
40
1
41
1
41
1
41
1
41
1
10
10.220076311680721
20
-16.319978795680296
30
0
10
10.166676071283151
20
-16.682120495572384
30
0
10
10.137615218644783
20
-17.121279331681496
30
0
10
10.120065209839984
20
-17.578584624805679
30
0
0
SPLINE
5
150
100
AcDbEntity
8
0
100
AcDbSpline
70
4
71
3
72
8
73
4
74
0
42
0.000000001
43
0.0000000001
44
0.0000000001
40
0
40
0
40
0
40
0
40
1
40
1
40
1
40
1
41
1
41
1
41
1
41
1
10
10.120065209839984
20
-17.578584624805679
30
0
10
10.056636402955396
20
-19.227513132389866
30
0
10
10.091699770275024
20
-17.988097504753913
30
0
10
9.7352283690822006
20
-17.257258714202973
30
0
0
LWPOLYLINE
5
151
100
AcDbEntity
8
0
100
AcDbPolyline
90
4
70
1
43
0.0
10
12.742576903657795
20
-19.274207848700357
10
9.6837265634623861
20
-19.274207848700357
10
9.6837265634623879
20
-21.264851548934264
10
12.742576903657795
20
-21.264851548934264
0
ENDSEC
0
SECTION
2
OBJECTS
0
DICTIONARY
5
C
100
AcDbDictionary
3
ACAD_GROUP
350
D
3
ACAD_MLINESTYLE
350
17
0
DICTIONARY
5
D
100
AcDbDictionary
0
DICTIONARY
5
1A
330
C
100
AcDbDictionary
0
DICTIONARY
5
17
100
AcDbDictionary
0
ENDSEC
0
EOF
