0
SECTION
2
HEADER
9
$INSUNITS
70
1
9
$ACADVER
1
AC1014
9
$HANDSEED
5
FFFF
0
ENDSEC
0
SECTION
2
TABLES
0
TABLE
2
VPORT
5
8
100
AcDbSymbolTable
0
ENDTAB
0
TABLE
2
LTYPE
5
5
100
AcDbSymbolTable
0
LTYPE
5
14
100
AcDbSymbolTableRecord
100
AcDbLinetypeTableRecord
2
BYBLOCK
70
0
0
LTYPE
5
15
100
AcDbSymbolTableRecord
100
AcDbLinetypeTableRecord
2
BYLAYER
70
0
0
ENDTAB
0
TABLE
2
LAYER
5
2
100
AcDbSymbolTable
70
2
0
LAYER
5
50
100
AcDbSymbolTableRecord
100
AcDbLayerTableRecord
2
0
70
0
6
CONTINUOUS
0
ENDTAB
0
TABLE
2
STYLE
5
3
100
AcDbSymbolTable
70
1
0
STYLE
5
11
100
AcDbSymbolTableRecord
100
AcDbTextStyleTableRecord
2
STANDARD
70
0
0
ENDTAB
0
TABLE
2
VIEW
5
6
100
AcDbSymbolTable
70
0
0
ENDTAB
0
TABLE
2
UCS
5
7
100
AcDbSymbolTable
70
0
0
ENDTAB
0
TABLE
2
APPID
5
9
100
AcDbSymbolTable
70
2
0
APPID
5
12
100
AcDbSymbolTableRecord
100
AcDbRegAppTableRecord
2
ACAD
70
0
0
ENDTAB
0
TABLE
2
DIMSTYLE
5
A
100
AcDbSymbolTable
70
1
0
ENDTAB
0
TABLE
2
BLOCK_RECORD
5
1
100
AcDbSymbolTable
70
1
0
BLOCK_RECORD
5
1F
100
AcDbSymbolTableRecord
100
AcDbBlockTableRecord
2
*MODEL_SPACE
0
BLOCK_RECORD
5
1B
100
AcDbSymbolTableRecord
100
AcDbBlockTableRecord
2
*PAPER_SPACE
0
ENDTAB
0
ENDSEC
0
SECTION
2
BLOCKS
0
BLOCK
5
20
100
AcDbEntity
100
AcDbBlockBegin
2
*MODEL_SPACE
0
ENDBLK
5
21
100
AcDbEntity
100
AcDbBlockEnd
0
BLOCK
5
1C
100
AcDbEntity
100
AcDbBlockBegin
2
*PAPER_SPACE
0
ENDBLK
5
1D
100
AcDbEntity
100
AcDbBlockEnd
0
ENDSEC
0
SECTION
2
ENTITIES
0
LWPOLYLINE
5
100
100
AcDbEntity
8
0
100
AcDbPolyline
90
4
70
1
43
0.0
10
-1.4784566929133973
20
-10.534780314959747
10
2.285543307086602
20
-10.534780314959745
10
2.2855433070866011
20
-7.6527803149597462
10
-1.478456692913398
20
-7.6527803149597489
0
CIRCLE
5
101
100
AcDbEntity
8
0
100
AcDbCircle
10
1.3631869745116167
20
-12.040919691910222
30
-4.3709567898628207e-17
40
0.062499999999999972
210
0
220
0
230
1
0
CIRCLE
5
102
100
AcDbEntity
8
0
100
AcDbCircle
10
-0.63681302548838226
20
-14.040919691910222
30
1.3112870369588462e-16
40
0.062499999999999972
210
0
220
0
230
1
0
CIRCLE
5
103
100
AcDbEntity
8
0
100
AcDbCircle
10
-0.63681302548838303
20
-12.040919691910222
30
1.3112870369588462e-16
40
0.062499999999999972
210
0
220
0
230
1
0
CIRCLE
5
104
100
AcDbEntity
8
0
100
AcDbCircle
10
1.3631869745116176
20
-14.040919691910219
30
-4.3709567898628207e-17
40
0.062499999999999972
210
0
220
0
230
1
0
LWPOLYLINE
5
105
100
AcDbEntity
8
0
100
AcDbPolyline
90
4
70
1
43
0.0
10
2.3335433070866149
20
-14.544780314959748
10
-1.5264566929133836
20
-14.54478031495975
10
-1.5264566929133851
20
-10.54478031495975
10
2.3335433070866136
20
-10.54478031495975
0
LWPOLYLINE
5
106
100
AcDbEntity
8
0
100
AcDbPolyline
90
4
70
1
43
0.0
10
-1.4784566929133951
20
-14.55478031495975
10
2.2855433070866042
20
-14.554780314959746
10
2.285543307086606
20
-17.436780314959744
10
-1.4784566929133938
20
-17.436780314959748
0
LWPOLYLINE
5
107
100
AcDbEntity
8
0
100
AcDbPolyline
90
12
70
1
43
0.0
10
0.68068035964021734
20
-19.781298005849177
42
0.19891236737964049
10
0.76906870728853527
20
-19.744686353497492
10
1.7587412665850473
20
-18.755013794200984
42
0.19891236737964238
10
1.7953529189367272
20
-18.666625446552665
10
1.795352918936727
20
-18.044380314959746
42
0.41421356237309997
10
1.6703529189367274
20
-17.919380314959742
10
0.054819271583808032
20
-17.919380314959742
42
0.19891236737963711
10
-0.033569076064510379
20
-17.955991967311427
10
-0.89924504056171617
20
-18.82166793180863
42
0.19891236737966578
10
-0.93585669291339635
20
-18.910056279456953
10
-0.93585669291339668
20
-19.656298005849177
42
0.41421356237310075
10
-0.81085669291339657
20
-19.781298005849177
0
LWPOLYLINE
5
108
100
AcDbEntity
8
0
100
AcDbPolyline
90
4
70
1
43
0.0
10
2.333543307086603
20
-20.328780314959744
10
2.3335433070866016
20
-17.446780314959746
10
-1.5264566929133967
20
-17.446780314959746
10
-1.5264566929133956
20
-20.328780314959747
0
LWPOLYLINE
5
109
100
AcDbEntity
8
0
100
AcDbPolyline
90
4
70
1
43
0.0
10
1.0835433070866085
20
-21.470780314959743
10
-0.27645669291339048
20
-21.470780314959743
10
-0.27645669291339015
20
-22.220780314959743
10
1.083543307086609
20
-22.220780314959743
0
LWPOLYLINE
5
110
100
AcDbEntity
8
0
100
AcDbPolyline
90
4
70
1
43
0.0
10
-1.5264566929133896
20
-23.220780314959747
10
-1.5264566929133907
20
-20.338780314959749
10
2.3335433070866078
20
-20.338780314959745
10
2.3335433070866092
20
-23.220780314959743
0
LINE
5
111
100
AcDbEntity
8
0
100
AcDbLine
10
1.3631869745116176
20
-14.040919691910219
30
-4.3709567898628207e-17
11
-0.63681302548838226
21
-14.040919691910222
31
1.3112870369588462e-16
0
LINE
5
112
100
AcDbEntity
8
0
100
AcDbLine
10
0.36318697451161769
20
-14.040919691910219
30
4.3709567898628207e-17
11
0.36318697451161697
21
-13.540919691910219
31
4.3709567898628207e-17
0
CIRCLE
5
113
100
AcDbEntity
8
0
100
AcDbCircle
10
0.36318697451161697
20
-13.540919691910219
30
4.3709567898628207e-17
40
0.125000000000001
210
0
220
0
230
1
0
CIRCLE
5
114
100
AcDbEntity
8
0
100
AcDbCircle
10
1.3631869745116167
20
-12.040919691910222
30
-4.3709567898628207e-17
40
0.12499999999999994
210
0
220
0
230
1
0
CIRCLE
5
115
100
AcDbEntity
8
0
100
AcDbCircle
10
-0.63681302548838303
20
-12.040919691910222
30
1.3112870369588462e-16
40
0.12500000000000003
210
0
220
0
230
1
0
ENDSEC
0
SECTION
2
OBJECTS
0
DICTIONARY
5
C
100
AcDbDictionary
3
ACAD_GROUP
350
D
3
ACAD_MLINESTYLE
350
17
0
DICTIONARY
5
D
100
AcDbDictionary
0
DICTIONARY
5
1A
330
C
100
AcDbDictionary
0
DICTIONARY
5
17
100
AcDbDictionary
0
ENDSEC
0
EOF
