0
SECTION
2
HEADER
9
$INSUNITS
70
1
9
$ACADVER
1
AC1014
9
$HANDSEED
5
FFFF
0
ENDSEC
0
SECTION
2
TABLES
0
TABLE
2
VPORT
5
8
100
AcDbSymbolTable
0
ENDTAB
0
TABLE
2
LTYPE
5
5
100
AcDbSymbolTable
0
LTYPE
5
14
100
AcDbSymbolTableRecord
100
AcDbLinetypeTableRecord
2
BYBLOCK
70
0
0
LTYPE
5
15
100
AcDbSymbolTableRecord
100
AcDbLinetypeTableRecord
2
BYLAYER
70
0
0
ENDTAB
0
TABLE
2
LAYER
5
2
100
AcDbSymbolTable
70
2
0
LAYER
5
50
100
AcDbSymbolTableRecord
100
AcDbLayerTableRecord
2
0
70
0
6
CONTINUOUS
0
ENDTAB
0
TABLE
2
STYLE
5
3
100
AcDbSymbolTable
70
1
0
STYLE
5
11
100
AcDbSymbolTableRecord
100
AcDbTextStyleTableRecord
2
STANDARD
70
0
0
ENDTAB
0
TABLE
2
VIEW
5
6
100
AcDbSymbolTable
70
0
0
ENDTAB
0
TABLE
2
UCS
5
7
100
AcDbSymbolTable
70
0
0
ENDTAB
0
TABLE
2
APPID
5
9
100
AcDbSymbolTable
70
2
0
APPID
5
12
100
AcDbSymbolTableRecord
100
AcDbRegAppTableRecord
2
ACAD
70
0
0
ENDTAB
0
TABLE
2
DIMSTYLE
5
A
100
AcDbSymbolTable
70
1
0
ENDTAB
0
TABLE
2
BLOCK_RECORD
5
1
100
AcDbSymbolTable
70
1
0
BLOCK_RECORD
5
1F
100
AcDbSymbolTableRecord
100
AcDbBlockTableRecord
2
*MODEL_SPACE
0
BLOCK_RECORD
5
1B
100
AcDbSymbolTableRecord
100
AcDbBlockTableRecord
2
*PAPER_SPACE
0
ENDTAB
0
ENDSEC
0
SECTION
2
BLOCKS
0
BLOCK
5
20
100
AcDbEntity
100
AcDbBlockBegin
2
*MODEL_SPACE
0
ENDBLK
5
21
100
AcDbEntity
100
AcDbBlockEnd
0
BLOCK
5
1C
100
AcDbEntity
100
AcDbBlockBegin
2
*PAPER_SPACE
0
ENDBLK
5
1D
100
AcDbEntity
100
AcDbBlockEnd
0
ENDSEC
0
SECTION
2
ENTITIES
0
CIRCLE
5
100
100
AcDbEntity
8
0
100
AcDbCircle
10
9.0716401533851503
20
0.88389793194457056
30
-3.4967654318902565e-16
40
0.054999999999999521
210
2.5144941353919755e-30
220
-4.4373425918681958e-31
230
1
0
CIRCLE
5
101
100
AcDbEntity
8
0
100
AcDbCircle
10
9.1155741362071687
20
3.0024639491225367
30
-1.7483827159451283e-16
40
0.054999999999999868
210
3.3033550406129869e-30
220
-4.4373425918681975e-31
230
1
0
CIRCLE
5
102
100
AcDbEntity
8
0
100
AcDbCircle
10
11.234140153385141
20
3.0463979319445547
30
-1.7483827159451283e-16
40
0.054999999999999716
210
2.5144941353919751e-30
220
-3.4512664603419315e-31
230
1
0
CIRCLE
5
103
100
AcDbEntity
8
0
100
AcDbCircle
10
13.352706170563112
20
3.002463949122538
30
-3.4967654318902565e-16
40
0.054999999999999868
210
3.3033550406129869e-30
220
-4.4373425918681975e-31
230
1
0
CIRCLE
5
104
100
AcDbEntity
8
0
100
AcDbCircle
10
13.39664015338513
20
0.88389793194457256
30
-1.7483827159451283e-16
40
0.054999999999999868
210
3.3033550406129869e-30
220
-4.4373425918681975e-31
230
1
0
CIRCLE
5
105
100
AcDbEntity
8
0
100
AcDbCircle
10
13.352706170563112
20
-1.2346680852333933
30
-3.4967654318902565e-16
40
0.054999999999999521
210
2.5144941353919755e-30
220
-4.4373425918681958e-31
230
1
0
CIRCLE
5
106
100
AcDbEntity
8
0
100
AcDbCircle
10
9.1155741362071687
20
-1.2346680852333951
30
-1.7483827159451283e-16
40
0.054999999999999868
210
3.3033550406129869e-30
220
-4.4373425918681975e-31
230
1
0
SPLINE
5
107
100
AcDbEntity
8
0
100
AcDbSpline
70
0
71
3
72
17
73
13
74
0
42
0.000000001
43
0.0000000001
44
0.0000000001
40
0.0020471542633697191
40
0.0020471542633697191
40
0.0020471542633697191
40
0.0020471542633697191
40
0.020249069685495297
40
0.020249069685495297
40
0.020249069685495297
40
0.040511157291965388
40
0.040511157291965388
40
0.040511157291965388
40
0.060766735937948083
40
0.060766735937948083
40
0.060766735937948083
40
0.081022314583930777
40
0.081022314583930777
40
0.081022314583930777
40
0.081022314583930777
10
9.4363747469637342
20
-0.27724513758265878
30
-1.7483827159451283e-16
10
9.4359986728127705
20
-0.25469245626985687
30
-3.4967654318902565e-16
10
9.4357100160628224
20
-0.23224219389293668
30
-3.4967654318902565e-16
10
9.435509635399308
20
-0.20987325712188254
30
-3.4967654318902565e-16
10
9.435286574883456
20
-0.18497251825924693
30
-3.4967654318902565e-16
10
9.4351728912042052
20
-0.1601751822524824
30
-1.7483827159451283e-16
10
9.4351708757068362
20
-0.13548096729250075
30
-1.7483827159451283e-16
10
9.4351688608484228
20
-0.11079458090562855
30
-1.7483827159451283e-16
10
9.4352784418589604
20
-0.086203282544086809
30
-1.7483827159451283e-16
10
9.4355029081560655
20
-0.061707026455086057
30
-1.7483827159451283e-16
10
9.4357273754841877
20
-0.037210657850035453
30
-1.7483827159451283e-16
10
9.436066795384118
20
-0.012801945233591214
30
-1.7483827159451283e-16
10
9.4365254646325223
20
0.011519118084776157
30
-1.7483827159451283e-16
0
SPLINE
5
108
100
AcDbEntity
8
0
100
AcDbSpline
70
0
71
3
72
53
73
49
74
0
42
0.000000001
43
0.0000000001
44
0.0000000001
40
0.081022314583930902
40
0.081022314583930902
40
0.081022314583930902
40
0.081022314583930902
40
0.16326620004653181
40
0.16326620004653181
40
0.16326620004653181
40
0.36388469990521743
40
0.36388469990521743
40
0.36388469990521743
40
0.54051115729201349
40
0.54051115729201349
40
0.54051115729201349
40
0.59999999999999998
40
0.59999999999999998
40
0.59999999999999998
40
0.65000000000000002
40
0.65000000000000002
40
0.65000000000000002
40
0.70000000000000007
40
0.70000000000000007
40
0.70000000000000007
40
0.71713761467880954
40
0.71713761467880954
40
0.71713761467880954
40
0.75000000000000011
40
0.75000000000000011
40
0.75000000000000011
40
0.78445923643133542
40
0.78445923643133542
40
0.78445923643133542
40
0.80000000000000016
40
0.80000000000000016
40
0.80000000000000016
40
0.84200198514301139
40
0.84200198514301139
40
0.84200198514301139
40
0.8962055658628052
40
0.8962055658628052
40
0.8962055658628052
40
0.93143789333067117
40
0.93143789333067117
40
0.93143789333067117
40
0.96667022079853715
40
0.96667022079853715
40
0.96667022079853715
40
0.99990111180609287
40
0.99990111180609287
40
0.99990111180609287
40
1.016824900670158
40
1.016824900670158
40
1.016824900670158
40
1.016824900670158
10
9.4365254646325223
20
0.011519118084772136
30
-1.7483827159451283e-16
10
9.4383867785009627
20
0.11021579898727567
30
-1.7483827159451283e-16
10
9.4421971804397806
20
0.2077079006196012
30
-1.7483827159451283e-16
10
9.4484222420616373
20
0.30405115460505755
30
-1.7483827159451283e-16
10
9.4636327032786234
20
0.53945851557294022
30
-1.7483827159451283e-16
10
9.4924331334011107
20
0.76833234952276663
30
0
10
9.5495520444684878
20
0.99565397744751938
30
-1.7483827159451283e-16
10
9.5996712914720366
20
1.1951183685975937
30
-1.7483827159451283e-16
10
9.6715313953451556
20
1.3895277908130761
30
-3.4967654318902565e-16
10
9.7727865717908813
20
1.572401826176125
30
-1.7483827159451283e-16
10
9.806891763248343
20
1.6339982226033158
30
-1.7483827159451283e-16
10
9.844413026716337
20
1.6944385387933452
30
-1.7483827159451283e-16
10
9.8856532775911372
20
1.7532449949131625
30
-1.7483827159451283e-16
10
9.9203337429799419
20
1.8026975375830179
30
0
10
9.9577630666504007
20
1.8511652105440033
30
-3.4967654318902565e-16
10
9.9982007380054547
20
1.8982653787112893
30
-1.7483827159451283e-16
10
10.038654672503903
20
1.9453844895318766
30
-3.4967654318902565e-16
10
10.082154528427735
20
1.9911723178244893
30
-1.7483827159451283e-16
10
10.128936609788383
20
2.0350995751704017
30
-1.7483827159451283e-16
10
10.144969828762509
20
2.0501543849496073
30
-1.7483827159451283e-16
10
10.161382440859789
20
2.0649841820997876
30
-1.7483827159451283e-16
10
10.178179768069382
20
2.0795636367570953
30
-1.7483827159451283e-16
10
10.210398270949387
20
2.107528097769507
30
-1.7483827159451283e-16
10
10.243994888694472
20
2.1345376703264014
30
-1.7483827159451283e-16
10
10.278965145169508
20
2.1604018529964466
30
0
10
10.315640916504474
20
2.1875274432834235
30
-1.7483827159451283e-16
10
10.353724265379265
20
2.2133139784007234
30
0
10
10.393121752363699
20
2.2375539880799038
30
-1.7483827159451283e-16
10
10.410881566232387
20
2.2484810317323967
30
-1.7483827159451283e-16
10
10.428886164856568
20
2.2590807335816891
30
0
10
10.447120654098475
20
2.2693375233192565
30
0
10
10.496437303453172
20
2.2970778398305574
30
-1.7483827159451283e-16
10
10.54725436744341
20
2.3221957485237921
30
-1.7483827159451283e-16
10
10.599169915292006
20
2.3445134573493491
30
0
10
10.666156647634251
20
2.373310040445221
30
-3.4967654318902565e-16
10
10.734632818576697
20
2.397291895399555
30
-3.4967654318902565e-16
10
10.803649724519971
20
2.4165441172475699
30
-1.7483827159451283e-16
10
10.848488392512262
20
2.4290518350561103
30
-1.7483827159451283e-16
10
10.893512615391575
20
2.4395599639999745
30
-3.4967654318902565e-16
10
10.938503246497197
20
2.4481750770851396
30
-1.7483827159451283e-16
10
10.983486310977476
20
2.4567887412612452
30
-3.4967654318902565e-16
10
11.028462135025288
20
2.4635164744217914
30
-1.7483827159451283e-16
10
11.073259984835261
20
2.4684914004615588
30
-3.4967654318902565e-16
10
11.115508623583597
20
2.4731832295101719
30
-1.7483827159451283e-16
10
11.157663500694939
20
2.4763240174429733
30
-3.4967654318902565e-16
10
11.199615973736684
20
2.4780238393757226
30
-1.7483827159451283e-16
10
11.211123939538416
20
2.4784901168381182
30
-1.7483827159451283e-16
10
11.222631905340144
20
2.4789563943005133
30
-1.7483827159451283e-16
10
11.234139871141869
20
2.479422671762908
30
-1.7483827159451283e-16
0
SPLINE
5
109
100
AcDbEntity
8
0
100
AcDbSpline
70
0
71
3
72
38
73
34
74
0
42
0.000000001
43
0.0000000001
44
0.0000000001
40
-1.0168248867944154
40
-1.0168248867944154
40
-1.0168248867944154
40
-1.0168248867944154
40
-0.99990143410164989
40
-0.99990143410164989
40
-0.99990143410164989
40
-0.91468644673317323
40
-0.91468644673317323
40
-0.91468644673317323
40
-0.75508434725013929
40
-0.75508434725013929
40
-0.75508434725013929
40
-0.71713761467914361
40
-0.71713761467914361
40
-0.71713761467914361
40
-0.54051115729234267
40
-0.54051115729234267
40
-0.54051115729234267
40
-0.36388469990554173
40
-0.36388469990554173
40
-0.36388469990554173
40
-0.29999999999999999
40
-0.29999999999999999
40
-0.29999999999999999
40
-0.25
40
-0.25
40
-0.25
40
-0.20000000000000001
40
-0.20000000000000001
40
-0.20000000000000001
40
-0.1632662000467987
40
-0.1632662000467987
40
-0.1632662000467987
40
-0.081022314584589319
40
-0.081022314584589319
40
-0.081022314584589319
40
-0.081022314584589319
10
11.234139871141869
20
2.4794226717627961
30
-1.7483827159451283e-16
10
11.2456476180941
20
2.4789564107915218
30
-3.4967654318902565e-16
10
11.257155365046325
20
2.4784901498202476
30
-3.4967654318902565e-16
10
11.268663111998549
20
2.4780238888489734
30
-1.7483827159451283e-16
10
11.376119303284332
20
2.4736700715182365
30
-1.7483827159451283e-16
10
11.48530552240679
20
2.4598105890860298
30
-1.7483827159451283e-16
10
11.593948519738584
20
2.4345922404256379
30
-3.4967654318902565e-16
10
11.800542928068381
20
2.3866372875202329
30
-3.4967654318902565e-16
10
11.999937203864862
20
2.2965732091097348
30
0
10
12.172011454230544
20
2.1729418309971429
30
-1.7483827159451283e-16
10
12.212923544874284
20
2.1435474379545822
30
-1.7483827159451283e-16
10
12.252335437072778
20
2.1123423389842482
30
-1.7483827159451283e-16
10
12.29010053869994
20
2.079563636757948
30
-1.7483827159451283e-16
10
12.462702387241427
20
1.9297516581511938
30
-1.7483827159451283e-16
10
12.594516344864543
20
1.7547741597092423
30
-1.7483827159451283e-16
10
12.695493734978879
20
1.5724018261770911
30
-1.7483827159451283e-16
10
12.79674891142469
20
1.3895277908140928
30
-1.7483827159451283e-16
10
12.868609015297867
20
1.1951183685986733
30
-1.7483827159451283e-16
10
12.918728262301498
20
0.99565397744868989
30
-1.7483827159451283e-16
10
12.936832008679341
20
0.92360475554938637
30
-1.7483827159451283e-16
10
12.952065845472054
20
0.85113842337827916
30
-1.7483827159451283e-16
10
12.964967932422262
20
0.77814339302295799
30
0
10
12.975062367134738
20
0.7210329758400017
30
0
10
12.983705322001189
20
0.66373313916269128
30
0
10
12.991138361465495
20
0.60615528804924756
30
0
10
12.998570312466498
20
0.54858586839619516
30
-1.7483827159451283e-16
10
13.004787325558537
20
0.49077946713598153
30
-1.7483827159451283e-16
10
13.009986727735715
20
0.43266404585844187
30
-1.7483827159451283e-16
10
13.013806392473345
20
0.38997040189668836
30
-3.4967654318902565e-16
10
13.017076189929298
20
0.34710532574572994
30
-3.4967654318902565e-16
10
13.019858064708661
20
0.30405115460595133
30
-3.4967654318902565e-16
10
13.02608312633051
20
0.20770790062086913
30
-1.7483827159451283e-16
10
13.029893528269318
20
0.11021579898898419
30
-1.7483827159451283e-16
10
13.031754842137762
20
0.011519118086973
30
-1.7483827159451283e-16
0
SPLINE
5
110
100
AcDbEntity
8
0
100
AcDbSpline
70
0
71
3
72
17
73
13
74
0
42
0.000000001
43
0.0000000001
44
0.0000000001
40
-0.081022314584589111
40
-0.081022314584589111
40
-0.081022314584589111
40
-0.081022314584589111
40
-0.060766735938441833
40
-0.060766735938441833
40
-0.060766735938441833
40
-0.040511157292294556
40
-0.040511157292294556
40
-0.040511157292294556
40
-0.020249069685667472
40
-0.020249069685667472
40
-0.020249069685667472
40
-0.0020471535337497669
40
-0.0020471535337497669
40
-0.0020471535337497669
40
-0.0020471535337497669
10
13.031754842137762
20
0.011519118086969152
30
-1.7483827159451283e-16
10
13.032213511386175
20
-0.012801945231610297
30
-1.7483827159451283e-16
10
13.03255293128611
20
-0.037210657848254378
30
-1.7483827159451283e-16
10
13.032777398614233
20
-0.06170702645349363
30
-1.7483827159451283e-16
10
13.033001864911343
20
-0.086203282542687415
30
-1.7483827159451283e-16
10
13.033111445921881
20
-0.11079458090441255
30
-1.7483827159451283e-16
10
13.033109431063465
20
-0.13548096729145573
30
-1.7483827159451283e-16
10
13.033107415566095
20
-0.16017518225161784
30
-1.7483827159451283e-16
10
13.032993731886842
20
-0.18497251825854774
30
-1.7483827159451283e-16
10
13.032770671370987
20
-0.20987325712134577
30
-1.7483827159451283e-16
10
13.032570290693549
20
-0.23224219544690589
30
-1.7483827159451283e-16
10
13.032281633889109
20
-0.25469246063390077
30
-3.4967654318902565e-16
10
13.031905559747921
20
-0.27724514105595727
30
-1.7483827159451283e-16
0
LINE
5
111
100
AcDbEntity
8
0
100
AcDbLine
10
13.031905559747921
20
-0.27724514105595727
30
-1.7483827159451295e-16
11
13.031905559747919
21
-1.3286020680554105
31
-1.7483827159451283e-16
0
ARC
5
112
100
AcDbEntity
8
0
100
AcDbCircle
10
13.131905559747917
20
-1.3286020680554107
30
0
40
0.099999999999999117
210
-1.7483827159451436e-15
220
5.9657728231024743e-30
230
1
100
AcDbArc
50
180
51
270
0
LINE
5
113
100
AcDbEntity
8
0
100
AcDbLine
10
13.131905559747917
20
-1.4286020680554095
30
-1.4791141972898169e-32
11
13.24664015338513
21
-1.4286020680554095
31
-1.7483827159451322e-16
0
ARC
5
114
100
AcDbEntity
8
0
100
AcDbCircle
10
13.24664015338513
20
-1.1286020680554123
30
-1.7483827159451283e-16
40
0.29999999999999738
210
3.3033550406129876e-30
220
-1.2940631647326425e-30
230
1
100
AcDbArc
50
-90
51
0
0
LINE
5
115
100
AcDbEntity
8
0
100
AcDbLine
10
13.546640153385127
20
-1.1286020680554121
30
-1.7483827159451384e-16
11
13.546640153385127
21
2.8963979319445574
31
-1.7483827159451236e-16
0
ARC
5
116
100
AcDbEntity
8
0
100
AcDbCircle
10
13.24664015338513
20
2.8963979319445574
30
-1.7483827159451283e-16
40
0.29999999999999738
210
-1.5528757976791708e-30
220
-6.1495562801520234e-46
230
1
100
AcDbArc
50
0
51
90
0
LINE
5
117
100
AcDbEntity
8
0
100
AcDbLine
10
13.24664015338513
20
3.196397931944555
30
-1.7483827159451283e-16
11
9.2216401533851506
21
3.1963979319445528
31
-1.7483827159449606e-16
0
ARC
5
118
100
AcDbEntity
8
0
100
AcDbCircle
10
9.2216401533851506
20
2.8963979319445552
30
-1.7483827159451283e-16
40
0.29999999999999771
210
3.3033550406129876e-30
220
-5.5838825558213455e-29
230
1
100
AcDbArc
50
90
51
180
0
LINE
5
119
100
AcDbEntity
8
0
100
AcDbLine
10
8.9216401533851517
20
2.8963979319445552
30
-1.7483827159451184e-16
11
8.9216401533851517
21
-1.1286020680554143
31
-3.496765431890261e-16
0
ARC
5
120
100
AcDbEntity
8
0
100
AcDbCircle
10
9.2216401533851506
20
-1.1286020680554139
30
-1.7483827159451283e-16
40
0.30000000000000016
210
-5.8279423864837734e-16
220
-6.7929824920348623e-31
230
1
100
AcDbArc
50
180
51
270
0
LINE
5
121
100
AcDbEntity
8
0
100
AcDbLine
10
9.2216401533851506
20
-1.4286020680554115
30
-1.7483827159451283e-16
11
9.3363747470240845
21
-1.428602068055411
31
-4.0518950605694689e-31
0
ARC
5
122
100
AcDbEntity
8
0
100
AcDbCircle
10
9.3363747470240845
20
-1.3286020680554118
30
-1.7483827159451283e-16
40
0.099999999999999117
210
-2.1940242835933695e-29
220
1.7483827159451395e-15
230
1
100
AcDbArc
50
-90
51
0
0
LINE
5
123
100
AcDbEntity
8
0
100
AcDbLine
10
9.4363747470240824
20
-1.3286020680496715
30
-1.7483827159451305e-16
11
9.4363747469637342
21
-0.27724513758265878
31
-1.7483827159451283e-16
0
CIRCLE
5
124
100
AcDbEntity
8
0
100
AcDbCircle
10
13.69664015338512
20
0.88389793194457233
30
-3.4967654318902565e-16
40
0.054999999999999903
210
3.0599389799434427e-30
220
4.9303806576312291e-32
230
1
0
CIRCLE
5
125
100
AcDbEntity
8
0
100
AcDbCircle
10
18.021640153385125
20
0.88389793194456601
30
-1.7483827159451283e-16
40
0.055000000000000257
210
3.0599389799434427e-30
220
-9.443755168821012e-46
230
1
0
CIRCLE
5
126
100
AcDbEntity
8
0
100
AcDbCircle
10
15.859140153385122
20
3.046397931944544
30
-1.7483827159451283e-16
40
0.05500000000000007
210
2.6655085273329375e-30
220
-8.2264418008107406e-46
230
1
0
CIRCLE
5
127
100
AcDbEntity
8
0
100
AcDbCircle
10
17.977706170563106
20
3.0024639491225233
30
-1.7483827159451283e-16
40
0.055000000000000257
210
3.0599389799434427e-30
220
-9.443755168821012e-46
230
1
0
CIRCLE
5
128
100
AcDbEntity
8
0
100
AcDbCircle
10
13.740574136207137
20
3.0024639491225296
30
-1.7483827159451283e-16
40
0.055000000000000257
210
3.0599389799434427e-30
220
-9.443755168821012e-46
230
1
0
CIRCLE
5
129
100
AcDbEntity
8
0
100
AcDbCircle
10
17.977706170563106
20
-1.2346680852333916
30
-1.7483827159451283e-16
40
0.054999999999999903
210
3.0599389799434427e-30
220
4.9303806576312291e-32
230
1
0
CIRCLE
5
130
100
AcDbEntity
8
0
100
AcDbCircle
10
13.740574136207135
20
-1.2346680852333853
30
-1.7483827159451283e-16
40
0.055000000000000257
210
3.0599389799434427e-30
220
-9.443755168821012e-46
230
1
0
CIRCLE
5
131
100
AcDbEntity
8
0
100
AcDbCircle
10
15.859140153385122
20
0.88389793194456923
30
-1.7483827159451283e-16
40
0.20375000000000029
210
3.4543694325539486e-30
220
4.930380657631217e-32
230
1
0
CIRCLE
5
132
100
AcDbEntity
8
0
100
AcDbCircle
10
16.212693543978396
20
1.2374513225378385
30
0
40
0.062500000000000097
210
2.6655085273329368e-30
220
-8.2264418008107375e-46
230
1
0
CIRCLE
5
133
100
AcDbEntity
8
0
100
AcDbCircle
10
15.505586762791847
20
1.2374513225378394
30
0
40
0.062500000000000097
210
2.6655085273329368e-30
220
-8.2264418008107375e-46
230
1
0
CIRCLE
5
134
100
AcDbEntity
8
0
100
AcDbCircle
10
15.505586762791847
20
0.53034454135130016
30
-1.7483827159451283e-16
40
0.062500000000000097
210
2.6655085273329368e-30
220
-8.2264418008107375e-46
230
1
0
CIRCLE
5
135
100
AcDbEntity
8
0
100
AcDbCircle
10
16.212693543978396
20
0.53034454135129894
30
-1.7483827159451283e-16
40
0.062500000000000097
210
2.6655085273329368e-30
220
-8.2264418008107375e-46
230
1
0
LWPOLYLINE
5
136
100
AcDbEntity
8
0
100
AcDbPolyline
90
8
70
1
43
0.0
10
18.171640153385127
20
-1.1286020680554105
10
18.171640153385127
20
2.8963979319445428
42
0.4142135623730947
10
17.871640153385126
20
3.1963979319445395
10
13.846640153385117
20
3.1963979319445452
42
0.4142135623730927
10
13.54664015338512
20
2.8963979319445485
10
13.54664015338512
20
-1.1286020680554045
42
0.4142135623730947
10
13.846640153385117
20
-1.4286020680554006
10
17.871640153385123
20
-1.4286020680554063
42
0.41421356237309742
0
ENDSEC
0
SECTION
2
OBJECTS
0
DICTIONARY
5
C
100
AcDbDictionary
3
ACAD_GROUP
350
D
3
ACAD_MLINESTYLE
350
17
0
DICTIONARY
5
D
100
AcDbDictionary
0
DICTIONARY
5
1A
330
C
100
AcDbDictionary
0
DICTIONARY
5
17
100
AcDbDictionary
0
ENDSEC
0
EOF
